ISO-10303-21;
HEADER;
FILE_DESCRIPTION(('STEP AP242'),
    '1');
FILE_NAME('6Ï9143ÀÍ5',
    '',
    ('UNSPECIFIED'),
    ('UNSPECIFIED'),
    'C3D Converter',
    'C3D Toolkit',
    '');
FILE_SCHEMA(('AP242_MANAGED_MODEL_BASED_3D_ENGINEERING_MIM_LF { 1 0 10303 442 1 1 4 }'));
ENDSEC;

DATA;
#1=SHAPE_REPRESENTATION('NONE',(#2),#6);
#2=AXIS2_PLACEMENT_3D('',#3,#4,#5);
#3=CARTESIAN_POINT('',(0.,0.,0.));
#4=DIRECTION('',(0.,0.,1.));
#5=DIRECTION('',(1.,0.,0.));
#6=(GEOMETRIC_REPRESENTATION_CONTEXT(3)GLOBAL_UNCERTAINTY_ASSIGNED_CONTEXT((#8))
GLOBAL_UNIT_ASSIGNED_CONTEXT((#7,#9,#10))REPRESENTATION_CONTEXT('NONE','NONE'));
#7=(LENGTH_UNIT()NAMED_UNIT(*)SI_UNIT(.MILLI.,.METRE.));
#8=UNCERTAINTY_MEASURE_WITH_UNIT(LENGTH_MEASURE(1.E-5),#7,'NONE','NONE');
#9=(NAMED_UNIT(*)PLANE_ANGLE_UNIT()SI_UNIT($,.RADIAN.));
#10=(NAMED_UNIT(*)SI_UNIT($,.STERADIAN.)SOLID_ANGLE_UNIT());
#11=SHAPE_DEFINITION_REPRESENTATION(#12,#1);
#12=PRODUCT_DEFINITION_SHAPE('NONE','NONE',#13);
#13=PRODUCT_DEFINITION('','UNSPECIFIED',#14,#17);
#14=PRODUCT_DEFINITION_FORMATION_WITH_SPECIFIED_SOURCE('ANY','UNSPECIFIED',#15,.NOT_KNOWN.);
#15=PRODUCT('','\X2\0414043504420430043B044C\X0\','NONE',(#20));
#16=PRODUCT_RELATED_PRODUCT_CATEGORY('detail','',(#15));
#17=DESIGN_CONTEXT('detailed design',#18,'design');
#18=APPLICATION_CONTEXT('configuration controlled 3d designs of mechanical parts and assemblies');
#19=APPLICATION_PROTOCOL_DEFINITION('international standard','config_control_design',
1994,#18);
#20=MECHANICAL_CONTEXT('NONE',#18,'mechanical');
#21=CC_DESIGN_DATE_AND_TIME_ASSIGNMENT(#22,#26,(#13));
#22=DATE_AND_TIME(#23,#24);
#23=CALENDAR_DATE(0,1,1);
#24=LOCAL_TIME(0,0,0.,#25);
#25=COORDINATED_UNIVERSAL_TIME_OFFSET(0,0,.AHEAD.);
#26=DATE_TIME_ROLE('creation_date');
#27=CC_DESIGN_APPROVAL(#28,(#13));
#28=APPROVAL(#29,'UNSPECIFIED');
#29=APPROVAL_STATUS('not_yet_approved');
#30=APPROVAL_DATE_TIME(#31,#28);
#31=DATE_AND_TIME(#32,#33);
#32=CALENDAR_DATE(0,1,1);
#33=LOCAL_TIME(0,0,0.,#34);
#34=COORDINATED_UNIVERSAL_TIME_OFFSET(0,0,.AHEAD.);
#35=MANIFOLD_SOLID_BREP('',#36);
#36=CLOSED_SHELL('',(#48,#57,#66,#75,#84,#93));
#37=COLOUR_RGB('',0.564705882352941,0.564705882352941,0.564705882352941);
#38=FILL_AREA_STYLE_COLOUR('',#37);
#39=FILL_AREA_STYLE($,(#38));
#40=SURFACE_STYLE_FILL_AREA(#39);
#41=SURFACE_SIDE_STYLE('',(#40));
#42=SURFACE_STYLE_USAGE(.BOTH.,#41);
#43=PRESENTATION_STYLE_ASSIGNMENT((#42));
#44=MECHANICAL_DESIGN_GEOMETRIC_PRESENTATION_REPRESENTATION('NONE',(#45,#56,#65,
#74,#83,#92,#101),#6);
#45=STYLED_ITEM('',(#43),#35);
#46=ADVANCED_BREP_SHAPE_REPRESENTATION('NONE',(#35),#6);
#47=SHAPE_REPRESENTATION_RELATIONSHIP('','',#1,#46);
#48=ADVANCED_FACE('',(#102),#104,.T.);
#49=COLOUR_RGB('',0.564705882352941,0.564705882352941,0.564705882352941);
#50=FILL_AREA_STYLE_COLOUR('',#49);
#51=FILL_AREA_STYLE($,(#50));
#52=SURFACE_STYLE_FILL_AREA(#51);
#53=SURFACE_SIDE_STYLE('',(#52));
#54=SURFACE_STYLE_USAGE(.BOTH.,#53);
#55=PRESENTATION_STYLE_ASSIGNMENT((#54));
#56=STYLED_ITEM('',(#55),#48);
#57=ADVANCED_FACE('',(#109),#111,.T.);
#58=COLOUR_RGB('',0.564705882352941,0.564705882352941,0.564705882352941);
#59=FILL_AREA_STYLE_COLOUR('',#58);
#60=FILL_AREA_STYLE($,(#59));
#61=SURFACE_STYLE_FILL_AREA(#60);
#62=SURFACE_SIDE_STYLE('',(#61));
#63=SURFACE_STYLE_USAGE(.BOTH.,#62);
#64=PRESENTATION_STYLE_ASSIGNMENT((#63));
#65=STYLED_ITEM('',(#64),#57);
#66=ADVANCED_FACE('',(#116),#118,.T.);
#67=COLOUR_RGB('',0.564705882352941,0.564705882352941,0.564705882352941);
#68=FILL_AREA_STYLE_COLOUR('',#67);
#69=FILL_AREA_STYLE($,(#68));
#70=SURFACE_STYLE_FILL_AREA(#69);
#71=SURFACE_SIDE_STYLE('',(#70));
#72=SURFACE_STYLE_USAGE(.BOTH.,#71);
#73=PRESENTATION_STYLE_ASSIGNMENT((#72));
#74=STYLED_ITEM('',(#73),#66);
#75=ADVANCED_FACE('',(#123),#125,.T.);
#76=COLOUR_RGB('',0.564705882352941,0.564705882352941,0.564705882352941);
#77=FILL_AREA_STYLE_COLOUR('',#76);
#78=FILL_AREA_STYLE($,(#77));
#79=SURFACE_STYLE_FILL_AREA(#78);
#80=SURFACE_SIDE_STYLE('',(#79));
#81=SURFACE_STYLE_USAGE(.BOTH.,#80);
#82=PRESENTATION_STYLE_ASSIGNMENT((#81));
#83=STYLED_ITEM('',(#82),#75);
#84=ADVANCED_FACE('',(#130),#132,.T.);
#85=COLOUR_RGB('',0.564705882352941,0.564705882352941,0.564705882352941);
#86=FILL_AREA_STYLE_COLOUR('',#85);
#87=FILL_AREA_STYLE($,(#86));
#88=SURFACE_STYLE_FILL_AREA(#87);
#89=SURFACE_SIDE_STYLE('',(#88));
#90=SURFACE_STYLE_USAGE(.BOTH.,#89);
#91=PRESENTATION_STYLE_ASSIGNMENT((#90));
#92=STYLED_ITEM('',(#91),#84);
#93=ADVANCED_FACE('',(#137),#139,.F.);
#94=COLOUR_RGB('',0.564705882352941,0.564705882352941,0.564705882352941);
#95=FILL_AREA_STYLE_COLOUR('',#94);
#96=FILL_AREA_STYLE($,(#95));
#97=SURFACE_STYLE_FILL_AREA(#96);
#98=SURFACE_SIDE_STYLE('',(#97));
#99=SURFACE_STYLE_USAGE(.BOTH.,#98);
#100=PRESENTATION_STYLE_ASSIGNMENT((#99));
#101=STYLED_ITEM('',(#100),#93);
#102=FACE_BOUND('',#103,.T.);
#103=EDGE_LOOP('',(#144,#145,#146,#147));
#104=PLANE('',#105);
#105=AXIS2_PLACEMENT_3D('',#106,#107,#108);
#106=CARTESIAN_POINT('',(-1.4,0.4,0.));
#107=DIRECTION('',(-1.,0.,0.));
#108=DIRECTION('',(0.,-1.,0.));
#109=FACE_BOUND('',#110,.T.);
#110=EDGE_LOOP('',(#148,#149,#150,#151));
#111=PLANE('',#112);
#112=AXIS2_PLACEMENT_3D('',#113,#114,#115);
#113=CARTESIAN_POINT('',(-1.4,-0.4,0.));
#114=DIRECTION('',(-1.18952466924124E-16,-1.,0.));
#115=DIRECTION('',(1.,-1.18952466924124E-16,0.));
#116=FACE_BOUND('',#117,.T.);
#117=EDGE_LOOP('',(#152,#153,#154,#155));
#118=PLANE('',#119);
#119=AXIS2_PLACEMENT_3D('',#120,#121,#122);
#120=CARTESIAN_POINT('',(1.4,-0.4,0.));
#121=DIRECTION('',(1.,0.,0.));
#122=DIRECTION('',(0.,1.,0.));
#123=FACE_BOUND('',#124,.T.);
#124=EDGE_LOOP('',(#156,#157,#158,#159));
#125=PLANE('',#126);
#126=AXIS2_PLACEMENT_3D('',#127,#128,#129);
#127=CARTESIAN_POINT('',(1.4,0.4,0.));
#128=DIRECTION('',(1.18952466924124E-16,1.,0.));
#129=DIRECTION('',(-1.,1.18952466924124E-16,0.));
#130=FACE_BOUND('',#131,.T.);
#131=EDGE_LOOP('',(#160,#161,#162,#163));
#132=PLANE('',#133);
#133=AXIS2_PLACEMENT_3D('',#134,#135,#136);
#134=CARTESIAN_POINT('',(0.,0.,0.01));
#135=DIRECTION('',(0.,0.,1.));
#136=DIRECTION('',(-1.,1.22464679914735E-16,0.));
#137=FACE_BOUND('',#138,.T.);
#138=EDGE_LOOP('',(#164,#165,#166,#167));
#139=PLANE('',#140);
#140=AXIS2_PLACEMENT_3D('',#141,#142,#143);
#141=CARTESIAN_POINT('',(0.,0.,0.));
#142=DIRECTION('',(0.,0.,1.));
#143=DIRECTION('',(-1.,1.22464679914735E-16,0.));
#144=ORIENTED_EDGE('',*,*,#168,.T.);
#145=ORIENTED_EDGE('',*,*,#169,.T.);
#146=ORIENTED_EDGE('',*,*,#170,.F.);
#147=ORIENTED_EDGE('',*,*,#171,.F.);
#148=ORIENTED_EDGE('',*,*,#172,.T.);
#149=ORIENTED_EDGE('',*,*,#173,.T.);
#150=ORIENTED_EDGE('',*,*,#174,.F.);
#151=ORIENTED_EDGE('',*,*,#169,.F.);
#152=ORIENTED_EDGE('',*,*,#175,.T.);
#153=ORIENTED_EDGE('',*,*,#176,.T.);
#154=ORIENTED_EDGE('',*,*,#177,.F.);
#155=ORIENTED_EDGE('',*,*,#173,.F.);
#156=ORIENTED_EDGE('',*,*,#178,.T.);
#157=ORIENTED_EDGE('',*,*,#171,.T.);
#158=ORIENTED_EDGE('',*,*,#179,.F.);
#159=ORIENTED_EDGE('',*,*,#176,.F.);
#160=ORIENTED_EDGE('',*,*,#170,.T.);
#161=ORIENTED_EDGE('',*,*,#174,.T.);
#162=ORIENTED_EDGE('',*,*,#177,.T.);
#163=ORIENTED_EDGE('',*,*,#179,.T.);
#164=ORIENTED_EDGE('',*,*,#178,.F.);
#165=ORIENTED_EDGE('',*,*,#175,.F.);
#166=ORIENTED_EDGE('',*,*,#172,.F.);
#167=ORIENTED_EDGE('',*,*,#168,.F.);
#168=EDGE_CURVE('',#180,#181,#182,.T.);
#169=EDGE_CURVE('',#181,#183,#184,.T.);
#170=EDGE_CURVE('',#185,#183,#186,.T.);
#171=EDGE_CURVE('',#180,#185,#187,.T.);
#172=EDGE_CURVE('',#181,#188,#189,.T.);
#173=EDGE_CURVE('',#188,#190,#191,.T.);
#174=EDGE_CURVE('',#183,#190,#192,.T.);
#175=EDGE_CURVE('',#188,#193,#194,.T.);
#176=EDGE_CURVE('',#193,#195,#196,.T.);
#177=EDGE_CURVE('',#190,#195,#197,.T.);
#178=EDGE_CURVE('',#193,#180,#198,.T.);
#179=EDGE_CURVE('',#195,#185,#199,.T.);
#180=VERTEX_POINT('',#200);
#181=VERTEX_POINT('',#201);
#182=LINE('',#202,#203);
#183=VERTEX_POINT('',#205);
#184=LINE('',#206,#207);
#185=VERTEX_POINT('',#209);
#186=LINE('',#210,#211);
#187=LINE('',#213,#214);
#188=VERTEX_POINT('',#216);
#189=LINE('',#217,#218);
#190=VERTEX_POINT('',#220);
#191=LINE('',#221,#222);
#192=LINE('',#224,#225);
#193=VERTEX_POINT('',#227);
#194=LINE('',#228,#229);
#195=VERTEX_POINT('',#231);
#196=LINE('',#232,#233);
#197=LINE('',#235,#236);
#198=LINE('',#238,#239);
#199=LINE('',#241,#242);
#200=CARTESIAN_POINT('',(-1.4,0.4,0.));
#201=CARTESIAN_POINT('',(-1.4,-0.4,0.));
#202=CARTESIAN_POINT('',(-1.4,0.4,0.));
#203=VECTOR('',#204,1.);
#204=DIRECTION('',(0.,-1.,0.));
#205=CARTESIAN_POINT('',(-1.4,-0.4,0.01));
#206=CARTESIAN_POINT('',(-1.4,-0.4,0.));
#207=VECTOR('',#208,1.);
#208=DIRECTION('',(0.,0.,1.));
#209=CARTESIAN_POINT('',(-1.4,0.4,0.01));
#210=CARTESIAN_POINT('',(-1.4,0.4,0.01));
#211=VECTOR('',#212,1.);
#212=DIRECTION('',(0.,-1.,0.));
#213=CARTESIAN_POINT('',(-1.4,0.4,0.));
#214=VECTOR('',#215,1.);
#215=DIRECTION('',(0.,0.,1.));
#216=CARTESIAN_POINT('',(1.4,-0.4,0.));
#217=CARTESIAN_POINT('',(-1.4,-0.4,0.));
#218=VECTOR('',#219,1.);
#219=DIRECTION('',(1.,-1.18952466924124E-16,0.));
#220=CARTESIAN_POINT('',(1.4,-0.4,0.01));
#221=CARTESIAN_POINT('',(1.4,-0.4,0.));
#222=VECTOR('',#223,1.);
#223=DIRECTION('',(0.,0.,1.));
#224=CARTESIAN_POINT('',(-1.4,-0.4,0.01));
#225=VECTOR('',#226,1.);
#226=DIRECTION('',(1.,-1.18952466924124E-16,0.));
#227=CARTESIAN_POINT('',(1.4,0.4,0.));
#228=CARTESIAN_POINT('',(1.4,-0.4,0.));
#229=VECTOR('',#230,1.);
#230=DIRECTION('',(0.,1.,0.));
#231=CARTESIAN_POINT('',(1.4,0.4,0.01));
#232=CARTESIAN_POINT('',(1.4,0.4,0.));
#233=VECTOR('',#234,1.);
#234=DIRECTION('',(0.,0.,1.));
#235=CARTESIAN_POINT('',(1.4,-0.4,0.01));
#236=VECTOR('',#237,1.);
#237=DIRECTION('',(0.,1.,0.));
#238=CARTESIAN_POINT('',(1.4,0.4,0.));
#239=VECTOR('',#240,1.);
#240=DIRECTION('',(-1.,1.18952466924124E-16,0.));
#241=CARTESIAN_POINT('',(1.4,0.4,0.01));
#242=VECTOR('',#243,1.);
#243=DIRECTION('',(-1.,1.18952466924124E-16,0.));
ENDSEC;
END-ISO-10303-21;
